Open Triads in standard tuning for the 7

Discussion in 'Music Theory, Lessons & Techniques' started by Chris, Jul 5, 2004.

  1. Chris

    Chris metalguitarist.org Forum MVP

    Messages:
    18,861
    Likes Received:
    4,161
    Joined:
    Apr 19, 2004
    Location:
    Boston, Mass
    C Major

    Code:
    o|-----|-----|-----|
    -|--2--|-----|-----|
    o|-----|-----|-----|
    -|-----|--3--|-----|
    -|-----|-----|--4--|
    o|-----|-----|-----|
    -|--1--|-----|-----|
    C Minor

    Code:
    -|-----|-----|--3--|-----|
    -|-----|-----|-----|--4--|
    o|-----|-----|-----|-----|
    -|--1--|-----|-----|-----|
    -|-----|-----|--2--|-----|
    -|-----|-----|-----|-----|
    -|-----|-----|-----|-----|
     
  2. Chris

    Chris metalguitarist.org Forum MVP

    Messages:
    18,861
    Likes Received:
    4,161
    Joined:
    Apr 19, 2004
    Location:
    Boston, Mass
    C# (Db) Major

    Code:
    -|--#--|-----|-----|-----|
    -|-----|--2--|-----|-----|
    -|--#--|-----|-----|-----|
    -|-----|-----|--3--|-----|
    -|-----|-----|-----|--4--|
    -|--1--|-----|-----|-----|
    -|-----|-----|-----|-----|
    
    C# (Db) Minor

    Code:
    o|-----|-----|
    -|-----|--4--|
    -|--1--|-----|
    -|-----|--3--|
    -|-----|--X--|
    o|-----|-----|
    -|-----|--2--|
    
     
  3. Chris

    Chris metalguitarist.org Forum MVP

    Messages:
    18,861
    Likes Received:
    4,161
    Joined:
    Apr 19, 2004
    Location:
    Boston, Mass
    D Major

    Code:
    -|-----|--2--|-----|
    -|-----|-----|--4--|
    -|-----|--1--|-----|
    o|-----|-----|-----|
    o|-----|-----|-----|
    -|-----|-----|--X--|
    -|-----|-----|--3--|
    
    D Minor

    Code:
    -|--1--|-----|-----|
    -|-----|-----|--4--|
    -|-----|--2--|-----|
    o|-----|-----|-----|
    o|-----|-----|-----|
    -|-----|-----|--x--|
    -|-----|-----|--3--|
    
     
  4. Chris

    Chris metalguitarist.org Forum MVP

    Messages:
    18,861
    Likes Received:
    4,161
    Joined:
    Apr 19, 2004
    Location:
    Boston, Mass
    I'll do the rest asap, my eyes are poppin' out from all this internet tab right now. :D
     
  5. Metal Ken

    Metal Ken Hates the Air Contributor

    Messages:
    21,002
    Likes Received:
    740
    Joined:
    Jun 27, 2004
    Location:
    Florida
    [ edited for dumbness ]
     
  6. Drew

    Drew Forum MVP

    Messages:
    26,339
    Likes Received:
    1,875
    Joined:
    Aug 17, 2004
    Location:
    Somerville, MA
    I can't think of a way to bar those two B's while letting the E, G, and high E strings ring out, so no, I'm going with chris on that one. ;)

    -D
     
  7. Metal Ken

    Metal Ken Hates the Air Contributor

    Messages:
    21,002
    Likes Received:
    740
    Joined:
    Jun 27, 2004
    Location:
    Florida
    wait, i see, the numbers are fingers, i dunno how i misread that, i was thinking the 2 means 2nd fret, god im blind lol. I was thinking 'hows a C# in a C triad?'
     

Share This Page