Joey Dahlia Guitar Mini School

Discussion in 'Music Theory, Lessons & Techniques' started by joeydahlia, Dec 31, 2004.

Thread Status:
Not open for further replies.
  1. joeydahlia

    joeydahlia SS.org Regular

    Messages:
    73
    Likes Received:
    3
    Joined:
    Aug 31, 2004
    Ostinato 3 video lesson

    http://65.254.79.230/osti3.wmv

    Ostinato 3 Animated Tab

    http://65.254.79.230/osti3.htm


    Ostinato 3 Standard Tab by www.joeydahlia.com
    Code:


    E|-----16------16--|-12--16------16--|-----16------16--|-12--16------16--|
    B|---------14------|---------14------|---------14------|---------14------|
    G|-13--------------|-----------------|-13--------------|-----------------|
    D|-----------------|-----------------|-----------------|-----------------|
    A|-----------------|-----------------|-----------------|-----------------|
    E|-----------------|-----------------|-----------------|-----------------|

    E|-----17--16--17--|-14--17--16--17--|-----19------19--|-----19------19--|
    B|-14--------------|-----------------|-14------17------|-16------14------|
    G|-----------------|-----------------|-----------------|-----------------|
    D|-----------------|-----------------|-----------------|-----------------|
    A|-----------------|-----------------|-----------------|-----------------|
    E|-----------------|-----------------|-----------------|-----------------|

    E|---------16------|---------16--21--|-19--21--17--21--|-16--21------21--|
    B|-16----------17--|-----17----------|-----------------|---------19------|
    G|-----18----------|-18--------------|-----------------|-----------------|
    D|-----------------|-----------------|-----------------|-----------------|
    A|-----------------|-----------------|-----------------|-----------------|
    E|-----------------|-----------------|-----------------|-----------------|

    E|-----21----------|
    B|-17--------------|
    G|---------18------|
    D|-----------------|
    A|-----------------|
    E|-----------------|



    Floating Arpeggio's Video lesson

    http://65.254.79.230/floating1.wmv

    Floating Arpeggio's Animated Tab

    http://65.254.79.230/floatingarps1.htm

    Title: Floating Arpeggio's
    Composer: WWW.JOEYDAHLIA.COM
    Copyright: Copyright ©
    Code:


    E|-----------------|-----------------|-15--19--15------|
    B|-----------------|---------14--15--|-------------15--|
    G|-----------------|-12--16----------|-----------------|
    D|-12--16--12--16--|-----------------|-----------------|
    A|-----------------|-----------------|-----------------|
    E|-----------------|-----------------|-----------------|


    E|-----------------|-----------------|-----------------|-----------------|
    B|-14--------------|-----------------|-----12--15--12--|-----------------|
    G|-----16--12------|-------------11--|-12--------------|-12--11----------|
    D|-------------16--|-12--11--12------|-----------------|---------12--11--|
    A|-----------------|-----------------|-----------------|-----------------|
    E|-----------------|-----------------|-----------------|-----------------|


    E|-----------------|-----10--14------|-----------------|-----------------|
    B|-------------10--|-14----------10--|-14--------------|-----------------|
    G|-----11--12------|-----------------|-----11--12------|-------------11--|
    D|-12--------------|-----------------|-------------11--|-12--11--12------|
    A|-----------------|-----------------|-----------------|-----------------|
    E|-----------------|-----------------|-----------------|-----------------|


    E|-------------14--|-15--14----------|-----------------|-----------------|
    B|-----12--15------|---------12--15--|-----------------|-----------------|
    G|-12--------------|-----------------|-11--12--11------|-----------------|
    D|-----------------|-----------------|-------------12--|-11--12----------|
    A|-----------------|-----------------|-----------------|-----------------|
    E|-----------------|-----------------|-----------------|-----------------|



    Kustom Lesson


    Video Guitar Lesson

    http://65.254.79.230/Stratercize.wmv

    Animated Tab for Kustom Guitar Lesson

    http://65.254.79.230/89001.htm

    Standard Tab for Kustom Lesson


    Kustom Lesson by www.joeydahlia.com
    Code:

    E|-----------------|---------20--22--|-18--------------|-------------20--|
    B|-----18----------|-----18----------|---------18------|---------18------|
    G|---------19------|-19--------------|-------------19--|-----19----------|
    D|-20----------20--|-----------------|-----20----------|-20--------------|
    A|-----------------|-----------------|-----------------|-----------------|
    E|-----------------|-----------------|-----------------|-----------------|

    E|-22--18--22--17--|-22------22------|-22--------------|-----------------|
    B|-----------------|-----18------17--|-----20----------|-------------18--|
    G|-----------------|-----------------|---------19--17--|---------17------|
    D|-----------------|-----------------|-----------------|-----19----------|
    A|-----------------|-----------------|-----------------|-20--------------|
    E|-----------------|-----------------|-----------------|-----------------|

    E|-17--18--20--18--|-17----------17--|-18--------------|
    B|-----------------|-----20--18------|-----------------|
    G|-----------------|-----------------|-----------------|
    D|-----------------|-----------------|-----------------|
    A|-----------------|-----------------|-----------------|
    E|-----------------|-----------------|-----------------|


    Exotic Scale 5 Guitar Lesson Video

    http://65.254.79.230/escale5.wmv

    Exotic Scale 5 Guitar Lesson Animated Tab

    http://65.254.79.230/5549.htm

    Exotic Scale 5 standard Tab
    Title: Exotic Scale 5
    Composer: www.joeydahlia.com
    Lyricist: in partners with Http://completeguitar.co.uk/
    Copyright: Copyright © JOEYDAHLIA.COM

    play this lesson as slow as possible, the cleaner the better,!
    Code:

    E|-----------------|-----------------|-----------------|
    B|-----------------|-----------------|-----------------|
    G|-----------------|-----------------|-----13--16--14--|
    D|-----------------|---------11--13--|-14--------------|
    A|-------------11--|-14--12----------|-----------------|
    E|-9---11--12------|-----------------|-----------------|


    E|-------------16--|-19--17----------|-----------------|-----------------|
    B|-14--16--17------|---------14--16--|-17--------------|-----------------|
    G|-----------------|-----------------|-----13--16--14--|-----------------|
    D|-----------------|-----------------|-----------------|-11--13--14------|
    A|-----------------|-----------------|-----------------|-------------11--|
    E|-----------------|-----------------|-----------------|-----------------|


    E|-----------------|-----------------|-----------------|-----------------|
    B|-----------------|-----------------|-----------------|-----------------|
    G|-----------------|-----------------|-----------------|-----------------|
    D|-----------------|-----------------|-----------------|-----------------|
    A|-14--12----------|-----------------|-----------------|-----------------|
    E|---------9---11--|-12--11--9-------|-----------------|-----------------|

    The Saw


    The Saw
    Composer: www.joeydahlia.com
    Copyright: Copyright ©





    E|-----------------|-14--17--14--10--|-14--10----------|
    B|-------------15--|-----------------|---------12------|
    G|---------14------|-----------------|-------------11--|
    D|-----16-
    A|-17-
    E|




    E|-----------------|---------14--17--|-14--10--14--10--|-----------------|
    B|-----------------|-----15----------|-----------------|-12--------------|
    G|-----------------|-14--------------|-----------------|-----11----------|
    D|-12----------16--|-----------------|-----------------|---------12------|
    A|-----14--17------|-----------------|-----------------|-------------14--|
    E|-----------------|-----------------|-----------------|-----------------|




    E|-----------------|-9---12--9---14--|-10--------------|-----------------|
    B|-------------10--|-----------------|-----12----------|-----------------|
    G|---------9-------|-----------------|---------11------|-----------------|
    D|-----11----------|-----------------|-------------12--|-----------------|
    A|-12--------------|-----------------|-----------------|-14--------------|
    E|-----------------|-----------------|-----------------|-----------------|




    *The Saw * Video Guitar Lesson
    http://65.254.79.230/saw.wmv

    The Saw Animated Tab
    http://65.254.79.230/saw.htm


    Code:
    Chills Guitar Lesson

    Chills Animated Tab

    Chills
    Composer: www.joeydahlia.com
    Copyright: Copyright ©


    E|-----15--14--15--|-----------------|-----------------|
    B|-12--------------|-----15--14--15--|-----------------|
    G|-----------------|-12--------------|-----12--11--12--|
    D|-----------------|-----------------|-9---------------|
    A|-----------------|-----------------|-----------------|
    E|-----------------|-----------------|-----------------|


    E|-----------------|-----------------|-----------------|-----15--14--15--|
    B|-----------------|-----------------|-----------------|-12--------------|
    G|-----------------|-----------------|-----12--11--12--|-----------------|
    D|-----12--11--12--|-----------------|-9---------------|-----------------|
    A|-9---------------|-----10--9---10--|-----------------|-----------------|
    E|-----------------|-7---------------|-----------------|-----------------|


    Chills Guitar Lesson
    http://65.254.79.230/chills.wmv

    Chills Animated Tab

    http://65.254.79.230/chills.htm
     
  2. Elysian

    Elysian Banned

    Messages:
    6,780
    Likes Received:
    550
    Joined:
    Dec 15, 2004
    Location:
    Plano, TX
    oh no not here too:(
     
  3. joeydahlia

    joeydahlia SS.org Regular

    Messages:
    73
    Likes Received:
    3
    Joined:
    Aug 31, 2004
    he is everywhere!

    haha can you get me that song for my site! i think you played it for me in the chat!


    joey
     
  4. Elysian

    Elysian Banned

    Messages:
    6,780
    Likes Received:
    550
    Joined:
    Dec 15, 2004
    Location:
    Plano, TX
  5. Drew

    Drew Forum MVP

    Messages:
    26,534
    Likes Received:
    1,972
    Joined:
    Aug 17, 2004
    Location:
    Somerville, MA
    :rolleyes:

    Joey, do you play a seven string?

    -D
     
  6. Elysian

    Elysian Banned

    Messages:
    6,780
    Likes Received:
    550
    Joined:
    Dec 15, 2004
    Location:
    Plano, TX
    i think thats effectively a no
     
  7. Drew

    Drew Forum MVP

    Messages:
    26,534
    Likes Received:
    1,972
    Joined:
    Aug 17, 2004
    Location:
    Somerville, MA
    Me too. Mods? Wanna lock this up?

    -D
     
  8. Chris

    Chris metalguitarist.org Forum MVP

    Messages:
    18,861
    Likes Received:
    4,161
    Joined:
    Apr 19, 2004
    Location:
    Boston, Mass
    While lessons are always appreciated, this is indeed sevenstring.org. :) Please keep 'em seven-related, otherwise we become just another music forum.
     
Thread Status:
Not open for further replies.

Share This Page