7 string B minor arpeggio in ascending and descending 3rds

Discussion in 'Music Theory, Lessons & Techniques' started by Weirdbeard, Apr 30, 2004.

  1. Weirdbeard

    Weirdbeard SS.org Regular

    Messages:
    165
    Likes Received:
    4
    Joined:
    Apr 30, 2004
    Location:
    Boston MA
    This is a cool exercise for practicing 7 string arpeggio's, going up in one position and coming down in another. On our new CD, I use the ascending part and descend with a straight sweep down the second position to B (5th string,14th fret)

    E ||----------------|-------------------------------------------------------------------------|--------------------10----------10---14---10---14---19--|
    B ||----------------|-------------------------------------------------------------------------|--12--------12---------12-----------------------------------|
    G ||----------------|-------------------------------------------------------11---------11--|--------11-----------------------------------------------------|
    D ||----------------|-------------------------------------12--------12---------12---------|----------------------------------------------------------------|
    A ||----------------|----9---------9---14---9---14---------14---------------------------|----------------------------------------------------------------|
    E |I--10-----------|--------10--------------------------------------------------------------|---------------------------------------------------------------|
    B ||---------12----|-------------------------------------------------------------------------|----------------------------------------------------------------|

    |---19---14--------14-------------------------------------------------|-----------------------------------------------------------------------------------|
    |---------------15-------15--------15---------------------------------|-----------------------------------------------------------------------------------|
    |-------------------------------16--------16--------16---------------|------------------------------------------------------------------------------------|
    |-------------------------------------------------16--------16---------|----16----------------------------------------------------------------------------|
    |-------------------------------------------------------------------17---|-----------17---14---17---14---------14-------------------------------------|
    |-------------------------------------------------------------------------|--------------------------------------14---------14----------14-----------------|
    |-------------------------------------------------------------------------|----------------------------------------------------------15---------15----\12--|
     
  2. Hyper-Rob

    Hyper-Rob SS.org Regular

    Messages:
    52
    Likes Received:
    18
    Joined:
    May 5, 2004
    Location:
    Rhode Island, USA
    this looks cool... I'm going to have to do some practicing pretty son and earn some more chops... I love this board!

    Rob
    www.hypersolid.net
     
  3. Cyrus

    Cyrus SS.org Regular

    Messages:
    7
    Likes Received:
    1
    Joined:
    Jun 19, 2004
    Location:
    Nottingham, UK
    i like it, nice
     
  4. Metal Ken

    Metal Ken Hates the Air Contributor

    Messages:
    21,002
    Likes Received:
    742
    Joined:
    Jun 27, 2004
    Location:
    Florida
    I dunno why, but it shows up as a bunch of compressed stuff on here, even with the text size turned all the way down and 1280x1024 resolution...
     
  5. Chris

    Chris metalguitarist.org Forum MVP

    Messages:
    18,861
    Likes Received:
    4,161
    Joined:
    Apr 19, 2004
    Location:
    Boston, Mass
    Code:
     
    E ||-----------------------|-------------------------------------------------------------------------|--------------------10----------10---14---10---14---19----|
    B ||-----------------------|-------------------------------------------------------------------------|--12--------12---------12-------------------------------------|
    G ||-----------------------|-------------------------------------------------------11---------11--|--------11-------------------------------------------------------|
    D ||-----------------------|-------------------------------------12--------12---------12---------|------------------------------------------------------------------|
    A ||-----------------------|----9---------9---14---9---14---------14---------------------------|------------------------------------------------------------------|
    E |--------10-------------|--------10--------------------------------------------------------------|------------------------------------------------------------------|
    B ||----------------12----|-------------------------------------------------------------------------|-------------------------------------------------------------------|
     
    |---19---14--------14------------------------------------------------------|----------------------------------------------------------------------------------------|
    |---------------15-------15--------15--------------------------------------|----------------------------------------------------------------------------------------|
    |-------------------------------16--------16--------16--------------------|-----------------------------------------------------------------------------------------|
    |-------------------------------------------------16--------16--------------|----16---------------------------------------------------------------------------------|
    |-------------------------------------------------------------------17--------|-----------17---14---17---14---------14------------------------------------------|
    |------------------------------------------------------------------------------|--------------------------------------14---------14----------14----------------------|
    |------------------------------------------------------------------------------|----------------------------------------------------------15---------15----\12-------|
    
     
  6. Chris D

    Chris D Fiddich or Morangie???

    Messages:
    430
    Likes Received:
    11
    Joined:
    Jun 30, 2004
    Location:
    Bristol, UK
    ^ That's better I can read it now !
     

Share This Page